LOADING IMAGES...
bottom
img
map
----------------------------1---------------------
3
xArbor Knoll
5825 Plum Hollow Dr.
Ypsilanti, Michigan 48197

APPLY NOW!
----------------------------3---------------------
3
xSunset Plaza
12063 S. Saginaw Road
Grand Blanc, Michigan 48439

APPLY NOW!
----------------------------4---------------------
3
xBridgewood
25891 Bridgewood Lane
Flat Rock, Michigan 48134

APPLY NOW!
----------------------------5---------------------
3
xCambridge
6954 Inkster Road
Dearborn Heights, Michigan 48127

APPLY NOW!
----------------------------6---------------------
3
xOrchards of Newburgh
37140 South Orchard Circle
Westland, Michigan 48186

APPLY NOW!
----------------------------7---------------------
3
xOrion Cove
711 Kimberly
Lake Orion, Michigan 48362

APPLY NOW!
----------------------------8---------------------
3
xOrleans Place
23221 Heritage Drive #108
Woodhaven, Michigan 48183

APPLY NOW!
----------------------------9---------------------
3
xPlymouth Manor
9126 Lilley Road
Plymouth, Michigan 48170

APPLY NOW!
----------------------------10---------------------
3
xPlymouth House
42560 Postiff Road
Plymouth, Michigan 48170

APPLY NOW!
----------------------------11---------------------
3
xRound Hill
7035 Round Hill Drive
Waterford, Michigan 48327

APPLY NOW!
----------------------------12---------------------
3
xVenoy Pines
7127 East Bonnie Drive
Westland, Michigan 48185

APPLY NOW!
----------------------------13---------------------
3
xAmericana Estates
5407 Aloha Lane
Casco Township, Michigan 48064

APPLY NOW!
----------------------------14---------------------
3
xWestridge
1515 Ridge Road
Ypsilanti, Michigan 48198

APPLY NOW!
----------------------------15---------------------
3
xLegacy Place
22490 Saratoga Drive
Southfield, Michigan 48075

APPLY NOW!
----------------------------16---------------------
3
xThe Heights of Novi
22123 Solomon Blvd.
Novi, MI 48375

APPLY NOW!
----------------------------17---------------------
3
xGlens of Northville
20969 Woodland Glen Drive
Northville, MI 48167

APPLY NOW!
img
apply
login
Stop searching, and start settling in! Exceptional, affordable apartments, condo rentals and manufactured home communities in Southeast Michigan. From Downriver to Grand Blanc, your search for a home ends here.
Apartment Communities
Arbor Knoll
Bridgewood
Cambridge
Glens of Northville
The Heights of Novi
Orchards of Newburgh
Orion Cove
Orleans Place
Plymouth House
Plymouth Manor
Round Hill
Sunset Plaza
Venoy Pines

Condominium Rental Communities
Legacy Place

Manufactured Home Communities
Americana Estates
Westridge
greendot
greendot
greendot
greendot
greendot
greendot
greendot
greendot
greendot
greendot
greendot
purple
purple
blue
blue
blue
<h1>For affordable apartments Southeast mi</h1><br> or to find <strong>apartments for rent in Oakland twp</strong> count on York Properties and discover <strong>Southfield condos for rent</strong> as well as <strong>homes for rent Downriver</strong> and <strong>Grand Blanc apartments for rent</strong> with exceptional, affordable apartments, Southfield condos for rent and manufactured home communities that offer affordable apartments Southeast mi in addition to apartments for rent in Oakland twp, in Grand Blanc and in Downriver. For affordable apartments Southeast mi and homes for rent Downriver, your search for Southfield condos for rent and apartments for rent in Oakland twp will lead you to York Properties with their affordable homes for rent in Downriver, and apartments for rent in Grand We specialize in affordable apartments Southeast mi, Grand Blanc apartments for rent and as well as Southfield condos for rent, homes for rent Downriver and Ann Arbor among others. Regardless of your needs, we will be able to work with you to find the best affordable apartments Southeast mi and apartments Oakland twp, as well as Southfield condos for rent, homes for rent Downriver and Grand Blanc apartments for rent.